ISO-10303-21;
HEADER;
/* Generated by software containing ST-Developer
 * from STEP Tools, Inc. (www.steptools.com) 
 */

FILE_DESCRIPTION(
/* description */ (''),
/* implementation_level */ '2;1');

FILE_NAME(
/* name */ 'SSA.750-Cap.step',
/* time_stamp */ '2025-11-05T18:08:36-06:00',
/* author */ (''),
/* organization */ (''),
/* preprocessor_version */ 'ST-DEVELOPER v20.1',
/* originating_system */ 'Autodesk Translation Framework v14.17.0.0',
/* authorisation */ '');

FILE_SCHEMA (('AUTOMOTIVE_DESIGN { 1 0 10303 214 3 1 1 }'));
ENDSEC;

DATA;
#10=MECHANICAL_DESIGN_GEOMETRIC_PRESENTATION_REPRESENTATION('',(#20,#21),
#461);
#11=SHAPE_REPRESENTATION_RELATIONSHIP('SRR','None',#471,#12);
#12=ADVANCED_BREP_SHAPE_REPRESENTATION('',(#13),#460);
#13=MANIFOLD_SOLID_BREP('Body1',#251);
#14=CYLINDRICAL_SURFACE('',#271,0.375);
#15=CYLINDRICAL_SURFACE('',#277,0.1985);
#16=CYLINDRICAL_SURFACE('',#283,0.135);
#17=CYLINDRICAL_SURFACE('',#292,0.625);
#18=CYLINDRICAL_SURFACE('',#296,0.36995);
#19=CYLINDRICAL_SURFACE('',#300,0.40495);
#20=STYLED_ITEM('',(#481),#236);
#21=STYLED_ITEM('',(#480),#13);
#22=FACE_BOUND('',#53,.T.);
#23=FACE_BOUND('',#58,.T.);
#24=FACE_BOUND('',#62,.T.);
#25=FACE_BOUND('',#65,.T.);
#26=FACE_BOUND('',#68,.T.);
#27=FACE_BOUND('',#71,.T.);
#28=PLANE('',#269);
#29=PLANE('',#279);
#30=PLANE('',#285);
#31=PLANE('',#290);
#32=PLANE('',#294);
#33=PLANE('',#298);
#34=FACE_OUTER_BOUND('',#51,.T.);
#35=FACE_OUTER_BOUND('',#52,.T.);
#36=FACE_OUTER_BOUND('',#54,.T.);
#37=FACE_OUTER_BOUND('',#55,.T.);
#38=FACE_OUTER_BOUND('',#56,.T.);
#39=FACE_OUTER_BOUND('',#57,.T.);
#40=FACE_OUTER_BOUND('',#59,.T.);
#41=FACE_OUTER_BOUND('',#60,.T.);
#42=FACE_OUTER_BOUND('',#61,.T.);
#43=FACE_OUTER_BOUND('',#63,.T.);
#44=FACE_OUTER_BOUND('',#64,.T.);
#45=FACE_OUTER_BOUND('',#66,.T.);
#46=FACE_OUTER_BOUND('',#67,.T.);
#47=FACE_OUTER_BOUND('',#69,.T.);
#48=FACE_OUTER_BOUND('',#70,.T.);
#49=FACE_OUTER_BOUND('',#72,.T.);
#50=FACE_OUTER_BOUND('',#73,.T.);
#51=EDGE_LOOP('',(#167,#168,#169,#170,#171));
#52=EDGE_LOOP('',(#172));
#53=EDGE_LOOP('',(#173));
#54=EDGE_LOOP('',(#174,#175,#176,#177,#178));
#55=EDGE_LOOP('',(#179,#180,#181,#182,#183));
#56=EDGE_LOOP('',(#184,#185,#186,#187,#188));
#57=EDGE_LOOP('',(#189));
#58=EDGE_LOOP('',(#190));
#59=EDGE_LOOP('',(#191,#192,#193,#194));
#60=EDGE_LOOP('',(#195,#196,#197,#198));
#61=EDGE_LOOP('',(#199));
#62=EDGE_LOOP('',(#200));
#63=EDGE_LOOP('',(#201,#202,#203,#204,#205));
#64=EDGE_LOOP('',(#206));
#65=EDGE_LOOP('',(#207));
#66=EDGE_LOOP('',(#208,#209,#210,#211,#212));
#67=EDGE_LOOP('',(#213));
#68=EDGE_LOOP('',(#214));
#69=EDGE_LOOP('',(#215,#216,#217,#218));
#70=EDGE_LOOP('',(#219));
#71=EDGE_LOOP('',(#220));
#72=EDGE_LOOP('',(#221,#222,#223,#224));
#73=EDGE_LOOP('',(#225,#226,#227,#228));
#74=LINE('',#396,#85);
#75=LINE('',#404,#86);
#76=LINE('',#409,#87);
#77=LINE('',#415,#88);
#78=LINE('',#422,#89);
#79=LINE('',#427,#90);
#80=LINE('',#435,#91);
#81=LINE('',#443,#92);
#82=LINE('',#450,#93);
#83=LINE('',#455,#94);
#84=LINE('',#457,#95);
#85=VECTOR('',#310,0.365);
#86=VECTOR('',#321,0.375);
#87=VECTOR('',#326,0.2035);
#88=VECTOR('',#333,0.1985);
#89=VECTOR('',#342,0.14);
#90=VECTOR('',#349,0.135);
#91=VECTOR('',#358,0.62);
#92=VECTOR('',#369,0.625);
#93=VECTOR('',#378,0.36995);
#94=VECTOR('',#385,0.40495);
#95=VECTOR('',#388,0.5855);
#96=CIRCLE('',#266,0.375);
#97=CIRCLE('',#267,0.375);
#98=CIRCLE('',#268,0.355);
#99=CIRCLE('',#270,0.145);
#100=CIRCLE('',#272,0.375);
#101=CIRCLE('',#274,0.2085);
#102=CIRCLE('',#275,0.1985);
#103=CIRCLE('',#276,0.1985);
#104=CIRCLE('',#278,0.1985);
#105=CIRCLE('',#280,0.546);
#106=CIRCLE('',#282,0.135);
#107=CIRCLE('',#284,0.135);
#108=CIRCLE('',#287,0.625);
#109=CIRCLE('',#288,0.625);
#110=CIRCLE('',#289,0.615);
#111=CIRCLE('',#291,0.40495);
#112=CIRCLE('',#293,0.625);
#113=CIRCLE('',#295,0.36995);
#114=CIRCLE('',#297,0.36995);
#115=CIRCLE('',#299,0.40495);
#116=VERTEX_POINT('',#391);
#117=VERTEX_POINT('',#392);
#118=VERTEX_POINT('',#395);
#119=VERTEX_POINT('',#399);
#120=VERTEX_POINT('',#402);
#121=VERTEX_POINT('',#406);
#122=VERTEX_POINT('',#408);
#123=VERTEX_POINT('',#410);
#124=VERTEX_POINT('',#414);
#125=VERTEX_POINT('',#418);
#126=VERTEX_POINT('',#421);
#127=VERTEX_POINT('',#425);
#128=VERTEX_POINT('',#430);
#129=VERTEX_POINT('',#431);
#130=VERTEX_POINT('',#434);
#131=VERTEX_POINT('',#438);
#132=VERTEX_POINT('',#441);
#133=VERTEX_POINT('',#445);
#134=VERTEX_POINT('',#448);
#135=VERTEX_POINT('',#452);
#136=EDGE_CURVE('',#116,#117,#96,.T.);
#137=EDGE_CURVE('',#117,#116,#97,.T.);
#138=EDGE_CURVE('',#116,#118,#74,.T.);
#139=EDGE_CURVE('',#118,#118,#98,.T.);
#140=EDGE_CURVE('',#119,#119,#99,.T.);
#141=EDGE_CURVE('',#120,#120,#100,.T.);
#142=EDGE_CURVE('',#120,#117,#75,.T.);
#143=EDGE_CURVE('',#121,#121,#101,.T.);
#144=EDGE_CURVE('',#121,#122,#76,.T.);
#145=EDGE_CURVE('',#122,#123,#102,.T.);
#146=EDGE_CURVE('',#123,#122,#103,.T.);
#147=EDGE_CURVE('',#123,#124,#77,.T.);
#148=EDGE_CURVE('',#124,#124,#104,.T.);
#149=EDGE_CURVE('',#125,#125,#105,.T.);
#150=EDGE_CURVE('',#119,#126,#78,.T.);
#151=EDGE_CURVE('',#126,#126,#106,.T.);
#152=EDGE_CURVE('',#127,#127,#107,.T.);
#153=EDGE_CURVE('',#127,#126,#79,.T.);
#154=EDGE_CURVE('',#128,#129,#108,.T.);
#155=EDGE_CURVE('',#129,#128,#109,.T.);
#156=EDGE_CURVE('',#128,#130,#80,.T.);
#157=EDGE_CURVE('',#130,#130,#110,.T.);
#158=EDGE_CURVE('',#131,#131,#111,.T.);
#159=EDGE_CURVE('',#132,#132,#112,.T.);
#160=EDGE_CURVE('',#132,#129,#81,.T.);
#161=EDGE_CURVE('',#133,#133,#113,.T.);
#162=EDGE_CURVE('',#134,#134,#114,.T.);
#163=EDGE_CURVE('',#134,#133,#82,.T.);
#164=EDGE_CURVE('',#135,#135,#115,.T.);
#165=EDGE_CURVE('',#135,#131,#83,.T.);
#166=EDGE_CURVE('',#125,#132,#84,.T.);
#167=ORIENTED_EDGE('',*,*,#136,.T.);
#168=ORIENTED_EDGE('',*,*,#137,.T.);
#169=ORIENTED_EDGE('',*,*,#138,.T.);
#170=ORIENTED_EDGE('',*,*,#139,.T.);
#171=ORIENTED_EDGE('',*,*,#138,.F.);
#172=ORIENTED_EDGE('',*,*,#139,.F.);
#173=ORIENTED_EDGE('',*,*,#140,.F.);
#174=ORIENTED_EDGE('',*,*,#141,.F.);
#175=ORIENTED_EDGE('',*,*,#142,.T.);
#176=ORIENTED_EDGE('',*,*,#136,.F.);
#177=ORIENTED_EDGE('',*,*,#137,.F.);
#178=ORIENTED_EDGE('',*,*,#142,.F.);
#179=ORIENTED_EDGE('',*,*,#143,.T.);
#180=ORIENTED_EDGE('',*,*,#144,.T.);
#181=ORIENTED_EDGE('',*,*,#145,.T.);
#182=ORIENTED_EDGE('',*,*,#146,.T.);
#183=ORIENTED_EDGE('',*,*,#144,.F.);
#184=ORIENTED_EDGE('',*,*,#145,.F.);
#185=ORIENTED_EDGE('',*,*,#146,.F.);
#186=ORIENTED_EDGE('',*,*,#147,.T.);
#187=ORIENTED_EDGE('',*,*,#148,.T.);
#188=ORIENTED_EDGE('',*,*,#147,.F.);
#189=ORIENTED_EDGE('',*,*,#149,.T.);
#190=ORIENTED_EDGE('',*,*,#143,.F.);
#191=ORIENTED_EDGE('',*,*,#140,.T.);
#192=ORIENTED_EDGE('',*,*,#150,.T.);
#193=ORIENTED_EDGE('',*,*,#151,.T.);
#194=ORIENTED_EDGE('',*,*,#150,.F.);
#195=ORIENTED_EDGE('',*,*,#152,.F.);
#196=ORIENTED_EDGE('',*,*,#153,.T.);
#197=ORIENTED_EDGE('',*,*,#151,.F.);
#198=ORIENTED_EDGE('',*,*,#153,.F.);
#199=ORIENTED_EDGE('',*,*,#148,.F.);
#200=ORIENTED_EDGE('',*,*,#152,.T.);
#201=ORIENTED_EDGE('',*,*,#154,.T.);
#202=ORIENTED_EDGE('',*,*,#155,.T.);
#203=ORIENTED_EDGE('',*,*,#156,.T.);
#204=ORIENTED_EDGE('',*,*,#157,.T.);
#205=ORIENTED_EDGE('',*,*,#156,.F.);
#206=ORIENTED_EDGE('',*,*,#157,.F.);
#207=ORIENTED_EDGE('',*,*,#158,.T.);
#208=ORIENTED_EDGE('',*,*,#159,.F.);
#209=ORIENTED_EDGE('',*,*,#160,.T.);
#210=ORIENTED_EDGE('',*,*,#154,.F.);
#211=ORIENTED_EDGE('',*,*,#155,.F.);
#212=ORIENTED_EDGE('',*,*,#160,.F.);
#213=ORIENTED_EDGE('',*,*,#141,.T.);
#214=ORIENTED_EDGE('',*,*,#161,.F.);
#215=ORIENTED_EDGE('',*,*,#162,.F.);
#216=ORIENTED_EDGE('',*,*,#163,.T.);
#217=ORIENTED_EDGE('',*,*,#161,.T.);
#218=ORIENTED_EDGE('',*,*,#163,.F.);
#219=ORIENTED_EDGE('',*,*,#164,.F.);
#220=ORIENTED_EDGE('',*,*,#162,.T.);
#221=ORIENTED_EDGE('',*,*,#164,.T.);
#222=ORIENTED_EDGE('',*,*,#165,.T.);
#223=ORIENTED_EDGE('',*,*,#158,.F.);
#224=ORIENTED_EDGE('',*,*,#165,.F.);
#225=ORIENTED_EDGE('',*,*,#149,.F.);
#226=ORIENTED_EDGE('',*,*,#166,.T.);
#227=ORIENTED_EDGE('',*,*,#159,.T.);
#228=ORIENTED_EDGE('',*,*,#166,.F.);
#229=CONICAL_SURFACE('',#265,0.365,0.785398163397446);
#230=CONICAL_SURFACE('',#273,0.2035,0.785398163397448);
#231=CONICAL_SURFACE('',#281,0.14,0.785398163397451);
#232=CONICAL_SURFACE('',#286,0.62,0.78539816339745);
#233=CONICAL_SURFACE('',#301,0.5855,0.785398163397448);
#234=ADVANCED_FACE('',(#34),#229,.T.);
#235=ADVANCED_FACE('',(#35,#22),#28,.T.);
#236=ADVANCED_FACE('',(#36),#14,.T.);
#237=ADVANCED_FACE('',(#37),#230,.F.);
#238=ADVANCED_FACE('',(#38),#15,.F.);
#239=ADVANCED_FACE('',(#39,#23),#29,.T.);
#240=ADVANCED_FACE('',(#40),#231,.F.);
#241=ADVANCED_FACE('',(#41),#16,.F.);
#242=ADVANCED_FACE('',(#42,#24),#30,.F.);
#243=ADVANCED_FACE('',(#43),#232,.T.);
#244=ADVANCED_FACE('',(#44,#25),#31,.T.);
#245=ADVANCED_FACE('',(#45),#17,.T.);
#246=ADVANCED_FACE('',(#46,#26),#32,.T.);
#247=ADVANCED_FACE('',(#47),#18,.T.);
#248=ADVANCED_FACE('',(#48,#27),#33,.T.);
#249=ADVANCED_FACE('',(#49),#19,.F.);
#250=ADVANCED_FACE('',(#50),#233,.T.);
#251=CLOSED_SHELL('',(#234,#235,#236,#237,#238,#239,#240,#241,#242,#243,
#244,#245,#246,#247,#248,#249,#250));
#252=DERIVED_UNIT_ELEMENT(#254,1.);
#253=DERIVED_UNIT_ELEMENT(#465,-3.);
#254=(
MASS_UNIT()
NAMED_UNIT(*)
SI_UNIT(.KILO.,.GRAM.)
);
#255=DERIVED_UNIT((#252,#253));
#256=MEASURE_REPRESENTATION_ITEM('density measure',
POSITIVE_RATIO_MEASURE(7850.),#255);
#257=PROPERTY_DEFINITION_REPRESENTATION(#262,#259);
#258=PROPERTY_DEFINITION_REPRESENTATION(#263,#260);
#259=REPRESENTATION('material name',(#261),#460);
#260=REPRESENTATION('density',(#256),#460);
#261=DESCRIPTIVE_REPRESENTATION_ITEM('Steel','Steel');
#262=PROPERTY_DEFINITION('material property','material name',#473);
#263=PROPERTY_DEFINITION('material property','density of part',#473);
#264=AXIS2_PLACEMENT_3D('',#389,#302,#303);
#265=AXIS2_PLACEMENT_3D('',#390,#304,#305);
#266=AXIS2_PLACEMENT_3D('',#393,#306,#307);
#267=AXIS2_PLACEMENT_3D('',#394,#308,#309);
#268=AXIS2_PLACEMENT_3D('',#397,#311,#312);
#269=AXIS2_PLACEMENT_3D('',#398,#313,#314);
#270=AXIS2_PLACEMENT_3D('',#400,#315,#316);
#271=AXIS2_PLACEMENT_3D('',#401,#317,#318);
#272=AXIS2_PLACEMENT_3D('',#403,#319,#320);
#273=AXIS2_PLACEMENT_3D('',#405,#322,#323);
#274=AXIS2_PLACEMENT_3D('',#407,#324,#325);
#275=AXIS2_PLACEMENT_3D('',#411,#327,#328);
#276=AXIS2_PLACEMENT_3D('',#412,#329,#330);
#277=AXIS2_PLACEMENT_3D('',#413,#331,#332);
#278=AXIS2_PLACEMENT_3D('',#416,#334,#335);
#279=AXIS2_PLACEMENT_3D('',#417,#336,#337);
#280=AXIS2_PLACEMENT_3D('',#419,#338,#339);
#281=AXIS2_PLACEMENT_3D('',#420,#340,#341);
#282=AXIS2_PLACEMENT_3D('',#423,#343,#344);
#283=AXIS2_PLACEMENT_3D('',#424,#345,#346);
#284=AXIS2_PLACEMENT_3D('',#426,#347,#348);
#285=AXIS2_PLACEMENT_3D('',#428,#350,#351);
#286=AXIS2_PLACEMENT_3D('',#429,#352,#353);
#287=AXIS2_PLACEMENT_3D('',#432,#354,#355);
#288=AXIS2_PLACEMENT_3D('',#433,#356,#357);
#289=AXIS2_PLACEMENT_3D('',#436,#359,#360);
#290=AXIS2_PLACEMENT_3D('',#437,#361,#362);
#291=AXIS2_PLACEMENT_3D('',#439,#363,#364);
#292=AXIS2_PLACEMENT_3D('',#440,#365,#366);
#293=AXIS2_PLACEMENT_3D('',#442,#367,#368);
#294=AXIS2_PLACEMENT_3D('',#444,#370,#371);
#295=AXIS2_PLACEMENT_3D('',#446,#372,#373);
#296=AXIS2_PLACEMENT_3D('',#447,#374,#375);
#297=AXIS2_PLACEMENT_3D('',#449,#376,#377);
#298=AXIS2_PLACEMENT_3D('',#451,#379,#380);
#299=AXIS2_PLACEMENT_3D('',#453,#381,#382);
#300=AXIS2_PLACEMENT_3D('',#454,#383,#384);
#301=AXIS2_PLACEMENT_3D('',#456,#386,#387);
#302=DIRECTION('axis',(0.,0.,1.));
#303=DIRECTION('refdir',(1.,0.,0.));
#304=DIRECTION('center_axis',(-1.,0.,0.));
#305=DIRECTION('ref_axis',(0.,0.,-1.));
#306=DIRECTION('center_axis',(1.,0.,0.));
#307=DIRECTION('ref_axis',(0.,0.,-1.));
#308=DIRECTION('center_axis',(1.,0.,0.));
#309=DIRECTION('ref_axis',(0.,0.,-1.));
#310=DIRECTION('',(0.707106781186549,-8.65956056235491E-17,-0.707106781186546));
#311=DIRECTION('center_axis',(-1.,0.,0.));
#312=DIRECTION('ref_axis',(0.,0.,-1.));
#313=DIRECTION('center_axis',(1.,0.,0.));
#314=DIRECTION('ref_axis',(0.,0.,-1.));
#315=DIRECTION('center_axis',(1.,0.,0.));
#316=DIRECTION('ref_axis',(0.,-1.,0.));
#317=DIRECTION('center_axis',(-1.,0.,0.));
#318=DIRECTION('ref_axis',(0.,0.,1.));
#319=DIRECTION('center_axis',(-1.,0.,0.));
#320=DIRECTION('ref_axis',(0.,0.,1.));
#321=DIRECTION('',(1.,0.,0.));
#322=DIRECTION('center_axis',(-1.,0.,0.));
#323=DIRECTION('ref_axis',(0.,1.,0.));
#324=DIRECTION('center_axis',(-1.,0.,0.));
#325=DIRECTION('ref_axis',(0.,1.,0.));
#326=DIRECTION('',(0.707106781186548,0.707106781186548,-8.65956056235493E-17));
#327=DIRECTION('center_axis',(1.,0.,0.));
#328=DIRECTION('ref_axis',(0.,1.,0.));
#329=DIRECTION('center_axis',(1.,0.,0.));
#330=DIRECTION('ref_axis',(0.,1.,0.));
#331=DIRECTION('center_axis',(1.,0.,0.));
#332=DIRECTION('ref_axis',(0.,-1.,0.));
#333=DIRECTION('',(1.,0.,0.));
#334=DIRECTION('center_axis',(1.,0.,0.));
#335=DIRECTION('ref_axis',(0.,-1.,0.));
#336=DIRECTION('center_axis',(-1.,0.,0.));
#337=DIRECTION('ref_axis',(0.,0.,1.));
#338=DIRECTION('center_axis',(-1.,0.,0.));
#339=DIRECTION('ref_axis',(0.,0.,1.));
#340=DIRECTION('center_axis',(1.,0.,0.));
#341=DIRECTION('ref_axis',(0.,-1.,0.));
#342=DIRECTION('',(-0.707106781186546,-0.707106781186549,-8.65956056235495E-17));
#343=DIRECTION('center_axis',(-1.,0.,0.));
#344=DIRECTION('ref_axis',(0.,-1.,0.));
#345=DIRECTION('center_axis',(1.,0.,0.));
#346=DIRECTION('ref_axis',(0.,-1.,0.));
#347=DIRECTION('center_axis',(1.,0.,0.));
#348=DIRECTION('ref_axis',(0.,-1.,0.));
#349=DIRECTION('',(1.,0.,0.));
#350=DIRECTION('center_axis',(1.,0.,0.));
#351=DIRECTION('ref_axis',(0.,-1.,0.));
#352=DIRECTION('center_axis',(-1.,0.,0.));
#353=DIRECTION('ref_axis',(0.,0.,-1.));
#354=DIRECTION('center_axis',(1.,0.,0.));
#355=DIRECTION('ref_axis',(0.,0.,-1.));
#356=DIRECTION('center_axis',(1.,0.,0.));
#357=DIRECTION('ref_axis',(0.,0.,-1.));
#358=DIRECTION('',(0.707106781186546,-8.65956056235495E-17,-0.707106781186549));
#359=DIRECTION('center_axis',(-1.,0.,0.));
#360=DIRECTION('ref_axis',(0.,0.,-1.));
#361=DIRECTION('center_axis',(1.,0.,0.));
#362=DIRECTION('ref_axis',(0.,0.,-1.));
#363=DIRECTION('center_axis',(-1.,0.,0.));
#364=DIRECTION('ref_axis',(0.,0.,1.));
#365=DIRECTION('center_axis',(-1.,0.,0.));
#366=DIRECTION('ref_axis',(0.,0.,1.));
#367=DIRECTION('center_axis',(-1.,0.,0.));
#368=DIRECTION('ref_axis',(0.,0.,1.));
#369=DIRECTION('',(1.,0.,0.));
#370=DIRECTION('center_axis',(-1.,0.,0.));
#371=DIRECTION('ref_axis',(0.,0.,1.));
#372=DIRECTION('center_axis',(-1.,0.,0.));
#373=DIRECTION('ref_axis',(0.,0.,1.));
#374=DIRECTION('center_axis',(-1.,0.,0.));
#375=DIRECTION('ref_axis',(0.,0.,1.));
#376=DIRECTION('center_axis',(-1.,0.,0.));
#377=DIRECTION('ref_axis',(0.,0.,1.));
#378=DIRECTION('',(1.,0.,0.));
#379=DIRECTION('center_axis',(1.,0.,0.));
#380=DIRECTION('ref_axis',(0.,0.,-1.));
#381=DIRECTION('center_axis',(-1.,0.,0.));
#382=DIRECTION('ref_axis',(0.,0.,1.));
#383=DIRECTION('center_axis',(-1.,0.,0.));
#384=DIRECTION('ref_axis',(0.,0.,1.));
#385=DIRECTION('',(1.,0.,0.));
#386=DIRECTION('center_axis',(1.,0.,0.));
#387=DIRECTION('ref_axis',(0.,0.,1.));
#388=DIRECTION('',(0.707106781186547,-8.65956056235493E-17,-0.707106781186548));
#389=CARTESIAN_POINT('',(0.,0.,0.));
#390=CARTESIAN_POINT('Origin',(0.975,0.,0.));
#391=CARTESIAN_POINT('',(0.965,-4.59242549680257E-17,0.375));
#392=CARTESIAN_POINT('',(0.965,-4.59242549680257E-17,-0.375));
#393=CARTESIAN_POINT('Origin',(0.965,0.,0.));
#394=CARTESIAN_POINT('Origin',(0.965,0.,0.));
#395=CARTESIAN_POINT('',(0.985,4.3474961369731E-17,0.355));
#396=CARTESIAN_POINT('',(0.975,4.46996081688784E-17,0.365));
#397=CARTESIAN_POINT('Origin',(0.985,0.,0.));
#398=CARTESIAN_POINT('Origin',(0.985,0.,0.375));
#399=CARTESIAN_POINT('',(0.985,0.146446153477245,-0.00396915308133822));
#400=CARTESIAN_POINT('Origin',(0.985,0.00144615347724496,-0.00396915308133824));
#401=CARTESIAN_POINT('Origin',(0.6225,0.,0.));
#402=CARTESIAN_POINT('',(0.26,-4.59242549680257E-17,-0.375));
#403=CARTESIAN_POINT('Origin',(0.26,0.,0.));
#404=CARTESIAN_POINT('',(0.6225,-4.59242549680257E-17,-0.375));
#405=CARTESIAN_POINT('Origin',(0.00499999999999999,0.00144615347724496,
-0.00396915308133824));
#406=CARTESIAN_POINT('',(0.,-0.207053846522755,-0.00396915308133821));
#407=CARTESIAN_POINT('Origin',(0.,0.00144615347724496,-0.00396915308133824));
#408=CARTESIAN_POINT('',(0.00999999999999999,-0.197053846522755,-0.00396915308133826));
#409=CARTESIAN_POINT('',(0.00499999999999999,-0.202053846522755,-0.00396915308133821));
#410=CARTESIAN_POINT('',(0.00999999999999999,0.199946153477245,-0.00396915308133821));
#411=CARTESIAN_POINT('Origin',(0.00999999999999999,0.00144615347724496,
-0.00396915308133824));
#412=CARTESIAN_POINT('Origin',(0.00999999999999999,0.00144615347724496,
-0.00396915308133824));
#413=CARTESIAN_POINT('Origin',(0.1875,0.00144615347724496,-0.00396915308133824));
#414=CARTESIAN_POINT('',(0.375,0.199946153477245,-0.00396915308133821));
#415=CARTESIAN_POINT('',(0.1875,0.199946153477245,-0.00396915308133821));
#416=CARTESIAN_POINT('Origin',(0.375,0.00144615347724496,-0.00396915308133824));
#417=CARTESIAN_POINT('Origin',(0.,0.,0.));
#418=CARTESIAN_POINT('',(-5.46369598732853E-18,-6.68657152334455E-17,-0.546));
#419=CARTESIAN_POINT('Origin',(-5.46369598732853E-18,0.,0.));
#420=CARTESIAN_POINT('Origin',(0.98,0.00144615347724496,-0.00396915308133824));
#421=CARTESIAN_POINT('',(0.975,0.136446153477245,-0.00396915308133825));
#422=CARTESIAN_POINT('',(0.98,0.141446153477245,-0.00396915308133822));
#423=CARTESIAN_POINT('Origin',(0.975,0.00144615347724496,-0.00396915308133824));
#424=CARTESIAN_POINT('Origin',(0.75,0.00144615347724496,-0.00396915308133824));
#425=CARTESIAN_POINT('',(0.375,0.136446153477245,-0.00396915308133822));
#426=CARTESIAN_POINT('Origin',(0.375,0.00144615347724496,-0.00396915308133824));
#427=CARTESIAN_POINT('',(0.75,0.136446153477245,-0.00396915308133822));
#428=CARTESIAN_POINT('Origin',(0.375,0.00144615347724496,-0.00396915308133824));
#429=CARTESIAN_POINT('Origin',(0.25,0.,0.));
#430=CARTESIAN_POINT('',(0.245,-7.65404249467096E-17,0.625));
#431=CARTESIAN_POINT('',(0.245,-7.65404249467096E-17,-0.625));
#432=CARTESIAN_POINT('Origin',(0.245,0.,0.));
#433=CARTESIAN_POINT('Origin',(0.245,0.,0.));
#434=CARTESIAN_POINT('',(0.255,7.53157781475622E-17,0.615));
#435=CARTESIAN_POINT('',(0.25,7.59281015471359E-17,0.62));
#436=CARTESIAN_POINT('Origin',(0.255,0.,0.));
#437=CARTESIAN_POINT('Origin',(0.255,0.,0.625));
#438=CARTESIAN_POINT('',(0.255,-4.95920721314721E-17,-0.40495));
#439=CARTESIAN_POINT('Origin',(0.255,0.,0.));
#440=CARTESIAN_POINT('Origin',(0.167,0.,0.));
#441=CARTESIAN_POINT('',(0.079,-7.65404249467096E-17,-0.625));
#442=CARTESIAN_POINT('Origin',(0.079,0.,0.));
#443=CARTESIAN_POINT('',(0.167,-7.65404249467096E-17,-0.625));
#444=CARTESIAN_POINT('Origin',(0.26,0.,0.36995));
#445=CARTESIAN_POINT('',(0.26,-4.53058083344563E-17,-0.36995));
#446=CARTESIAN_POINT('Origin',(0.26,0.,0.));
#447=CARTESIAN_POINT('Origin',(0.255,0.,0.));
#448=CARTESIAN_POINT('',(0.25,-4.53058083344563E-17,-0.36995));
#449=CARTESIAN_POINT('Origin',(0.25,0.,0.));
#450=CARTESIAN_POINT('',(0.255,-4.53058083344563E-17,-0.36995));
#451=CARTESIAN_POINT('Origin',(0.25,0.,0.40495));
#452=CARTESIAN_POINT('',(0.25,-4.95920721314721E-17,-0.40495));
#453=CARTESIAN_POINT('Origin',(0.25,0.,0.));
#454=CARTESIAN_POINT('Origin',(0.2525,0.,0.));
#455=CARTESIAN_POINT('',(0.2525,-4.95920721314721E-17,-0.40495));
#456=CARTESIAN_POINT('Origin',(0.0395,0.,0.));
#457=CARTESIAN_POINT('',(0.0395,-7.17030700900775E-17,-0.5855));
#458=UNCERTAINTY_MEASURE_WITH_UNIT(LENGTH_MEASURE(0.000393700787401575),
#463,'DISTANCE_ACCURACY_VALUE',
'Maximum model space distance between geometric entities at asserted c
onnectivities');
#459=UNCERTAINTY_MEASURE_WITH_UNIT(LENGTH_MEASURE(0.000393700787401575),
#463,'DISTANCE_ACCURACY_VALUE',
'Maximum model space distance between geometric entities at asserted c
onnectivities');
#460=(
GEOMETRIC_REPRESENTATION_CONTEXT(3)
GLOBAL_UNCERTAINTY_ASSIGNED_CONTEXT((#458))
GLOBAL_UNIT_ASSIGNED_CONTEXT((#463,#467,#468))
REPRESENTATION_CONTEXT('','3D')
);
#461=(
GEOMETRIC_REPRESENTATION_CONTEXT(3)
GLOBAL_UNCERTAINTY_ASSIGNED_CONTEXT((#459))
GLOBAL_UNIT_ASSIGNED_CONTEXT((#463,#467,#468))
REPRESENTATION_CONTEXT('','3D')
);
#462=DIMENSIONAL_EXPONENTS(1.,0.,0.,0.,0.,0.,0.);
#463=(
CONVERSION_BASED_UNIT('inch',#466)
LENGTH_UNIT()
NAMED_UNIT(#462)
);
#464=(
LENGTH_UNIT()
NAMED_UNIT(*)
SI_UNIT(.MILLI.,.METRE.)
);
#465=(
LENGTH_UNIT()
NAMED_UNIT(*)
SI_UNIT($,.METRE.)
);
#466=LENGTH_MEASURE_WITH_UNIT(LENGTH_MEASURE(25.4),#464);
#467=(
NAMED_UNIT(*)
PLANE_ANGLE_UNIT()
SI_UNIT($,.RADIAN.)
);
#468=(
NAMED_UNIT(*)
SI_UNIT($,.STERADIAN.)
SOLID_ANGLE_UNIT()
);
#469=SHAPE_DEFINITION_REPRESENTATION(#470,#471);
#470=PRODUCT_DEFINITION_SHAPE('',$,#473);
#471=SHAPE_REPRESENTATION('',(#264),#460);
#472=PRODUCT_DEFINITION_CONTEXT('part definition',#477,'design');
#473=PRODUCT_DEFINITION('SSA 3/4-CAP','SSA 3/4-CAP v5',#474,#472);
#474=PRODUCT_DEFINITION_FORMATION('',$,#479);
#475=PRODUCT_RELATED_PRODUCT_CATEGORY('SSA 3/4-CAP v5','SSA 3/4-CAP v5',
(#479));
#476=APPLICATION_PROTOCOL_DEFINITION('international standard',
'automotive_design',2009,#477);
#477=APPLICATION_CONTEXT(
'Core Data for Automotive Mechanical Design Process');
#478=PRODUCT_CONTEXT('part definition',#477,'mechanical');
#479=PRODUCT('SSA 3/4-CAP','SSA 3/4-CAP v5',$,(#478));
#480=PRESENTATION_STYLE_ASSIGNMENT((#482));
#481=PRESENTATION_STYLE_ASSIGNMENT((#483));
#482=SURFACE_STYLE_USAGE(.BOTH.,#484);
#483=SURFACE_STYLE_USAGE(.BOTH.,#485);
#484=SURFACE_SIDE_STYLE('',(#486));
#485=SURFACE_SIDE_STYLE('',(#487));
#486=SURFACE_STYLE_FILL_AREA(#488);
#487=SURFACE_STYLE_FILL_AREA(#489);
#488=FILL_AREA_STYLE('Plastic - Glossy (Black)',(#490));
#489=FILL_AREA_STYLE('Opaque(44,44,44)',(#491));
#490=FILL_AREA_STYLE_COLOUR('Plastic - Glossy (Black)',#492);
#491=FILL_AREA_STYLE_COLOUR('Opaque(44,44,44)',#493);
#492=COLOUR_RGB('Plastic - Glossy (Black)',0.0980392156862745,0.0980392156862745,
0.0980392156862745);
#493=COLOUR_RGB('Opaque(44,44,44)',0.172549019607843,0.172549019607843,
0.172549019607843);
ENDSEC;
END-ISO-10303-21;
